  0
SECTION
  2
HEADER
  9
$ACADVER
  1
AC1009
  9
$INSBASE
 10
15.41774791473584
 20
23.58651358773278
 30
0.0
  9
$EXTMIN
 10
15.41774791473584
 20
23.55306316114125
 30
0.0
  9
$EXTMAX
 10
84.53049007601164
 20
68.21086956521739
 30
0.0
  9
$LIMMIN
 10
0.0
 20
0.0
  9
$LIMMAX
 10
420.0
 20
297.0
  9
$ORTHOMODE
 70
     1
  9
$REGENMODE
 70
     0
  9
$FILLMODE
 70
     1
  9
$QTEXTMODE
 70
     0
  9
$MIRRTEXT
 70
     0
  9
$DRAGMODE
 70
     2
  9
$LTSCALE
 40
1.0
  9
$OSMODE
 70
     0
  9
$ATTMODE
 70
     1
  9
$TEXTSIZE
 40
3.5
  9
$TRACEWID
 40
0.1
  9
$TEXTSTYLE
  7
STANDARD
  9
$CLAYER
  8
4AN
  9
$CELTYPE
  6
BYLAYER
  9
$CECOLOR
 62
   256
  9
$DIMSCALE
 40
1.0
  9
$DIMASZ
 40
2.0
  9
$DIMEXO
 40
1.0
  9
$DIMDLI
 40
8.0
  9
$DIMRND
 40
0.0
  9
$DIMDLE
 40
0.0
  9
$DIMEXE
 40
2.0
  9
$DIMTP
 40
0.1
  9
$DIMTM
 40
0.1
  9
$DIMTXT
 40
3.5
  9
$DIMCEN
 40
2.0
  9
$DIMTSZ
 40
0.0
  9
$DIMTOL
 70
     0
  9
$DIMLIM
 70
     0
  9
$DIMTIH
 70
     0
  9
$DIMTOH
 70
     0
  9
$DIMSE1
 70
     0
  9
$DIMSE2
 70
     0
  9
$DIMTAD
 70
     1
  9
$DIMZIN
 70
     0
  9
$DIMBLK
  1

  9
$DIMASO
 70
     1
  9
$DIMSHO
 70
     0
  9
$DIMPOST
  1

  9
$DIMAPOST
  1

  9
$DIMALT
 70
     0
  9
$DIMALTD
 70
     2
  9
$DIMALTF
 40
25.39999999999999
  9
$DIMLFAC
 40
1.0
  9
$DIMTOFL
 70
     0
  9
$DIMTVP
 40
0.0
  9
$DIMTIX
 70
     0
  9
$DIMSOXD
 70
     0
  9
$DIMSAH
 70
     0
  9
$DIMBLK1
  1

  9
$DIMBLK2
  1

  9
$DIMSTYLE
  2
*UNNAMED
  9
$DIMCLRD
 70
     0
  9
$DIMCLRE
 70
     0
  9
$DIMCLRT
 70
     0
  9
$DIMTFAC
 40
1.0
  9
$DIMGAP
 40
0.09
  9
$LUNITS
 70
     2
  9
$LUPREC
 70
     3
  9
$SKETCHINC
 40
0.1
  9
$FILLETRAD
 40
20.0
  9
$AUNITS
 70
     0
  9
$AUPREC
 70
     1
  9
$MENU
  1

  9
$ELEVATION
 40
0.0
  9
$PELEVATION
 40
0.0
  9
$THICKNESS
 40
0.0
  9
$LIMCHECK
 70
     0
  9
$BLIPMODE
 70
     0
  9
$CHAMFERA
 40
0.0
  9
$CHAMFERB
 40
0.0
  9
$SKPOLY
 70
     1
  9
$TDCREATE
 40
2449337.576598726
  9
$TDUPDATE
 40
2449394.634264814
  9
$TDINDWG
 40
0.0003592593
  9
$TDUSRTIMER
 40
0.0003592593
  9
$USRTIMER
 70
     1
  9
$ANGBASE
 50
0.0
  9
$ANGDIR
 70
     0
  9
$PDMODE
 70
     3
  9
$PDSIZE
 40
0.0
  9
$PLINEWID
 40
0.0
  9
$COORDS
 70
     2
  9
$SPLFRAME
 70
     0
  9
$SPLINETYPE
 70
     6
  9
$SPLINESEGS
 70
     8
  9
$ATTDIA
 70
     1
  9
$ATTREQ
 70
     1
  9
$HANDLING
 70
     0
  9
$HANDSEED
  5
3E
  9
$SURFTAB1
 70
     6
  9
$SURFTAB2
 70
     6
  9
$SURFTYPE
 70
     6
  9
$SURFU
 70
     6
  9
$SURFV
 70
     6
  9
$UCSNAME
  2

  9
$UCSORG
 10
0.0
 20
0.0
 30
0.0
  9
$UCSXDIR
 10
1.0
 20
0.0
 30
0.0
  9
$UCSYDIR
 10
0.0
 20
1.0
 30
0.0
  9
$PUCSNAME
  2

  9
$PUCSORG
 10
0.0
 20
0.0
 30
0.0
  9
$PUCSXDIR
 10
1.0
 20
0.0
 30
0.0
  9
$PUCSYDIR
 10
0.0
 20
1.0
 30
0.0
  9
$USERI1
 70
     0
  9
$USERI2
 70
     3
  9
$USERI3
 70
    15
  9
$USERI4
 70
     0
  9
$USERI5
 70
     0
  9
$USERR1
 40
1.0
  9
$USERR2
 40
1.0
  9
$USERR3
 40
0.0
  9
$USERR4
 40
1.0
  9
$USERR5
 40
0.0
  9
$WORLDVIEW
 70
     1
  9
$SHADEDGE
 70
     3
  9
$SHADEDIF
 70
    70
  9
$TILEMODE
 70
     1
  9
$MAXACTVP
 70
    16
  9
$PINSBASE
 10
0.0
 20
0.0
 30
0.0
  9
$PLIMCHECK
 70
     0
  9
$PEXTMIN
 10
1.000000000000000E+20
 20
1.000000000000000E+20
 30
1.000000000000000E+20
  9
$PEXTMAX
 10
-1.000000000000000E+20
 20
-1.000000000000000E+20
 30
-1.000000000000000E+20
  9
$PLIMMIN
 10
0.0
 20
0.0
  9
$PLIMMAX
 10
12.0
 20
9.0
  9
$UNITMODE
 70
     0
  9
$VISRETAIN
 70
     0
  9
$PLINEGEN
 70
     0
  9
$PSLTSCALE
 70
     0
  9
$TREEDEPTH
 70
  3020
  9
$DWGCODEPAGE
  3
undefined
  0
ENDSEC
  0
SECTION
  2
TABLES
  0
TABLE
  2
VPORT
 70
     2
  0
VPORT
  2
*ACTIVE
 70
     0
 10
0.0
 20
0.0
 11
1.0
 21
1.0
 12
49.97411899537374
 22
50.67519430772435
 13
0.0
 23
0.0
 14
1.0
 24
1.0
 15
10.0
 25
10.0
 16
0.0
 26
0.0
 36
1.0
 17
0.0
 27
0.0
 37
0.0
 40
54.17736143998314
 41
1.275675675675675
 42
50.0
 43
0.0
 44
0.0
 50
0.0
 51
0.0
 71
     0
 72
   100
 73
     1
 74
     0
 75
     0
 76
     0
 77
     0
 78
     0
  0
ENDTAB
  0
TABLE
  2
LTYPE
 70
     1
  0
LTYPE
  2
AUSGEZOGEN
 70
    64
  3
Solid line
 72
    65
 73
     0
 40
0.0
  0
ENDTAB
  0
TABLE
  2
LAYER
 70
     4
  0
LAYER
  2
0
 70
    64
 62
     7
  6
AUSGEZOGEN
  0
LAYER
  2
ITEM_50
 70
    64
 62
     7
  6
AUSGEZOGEN
  0
LAYER
  2
ITEM_HILFE
 70
    64
 62
     3
  6
AUSGEZOGEN
  0
LAYER
  2
4AN
 70
     0
 62
     3
  6
AUSGEZOGEN
  0
ENDTAB
  0
TABLE
  2
STYLE
 70
     1
  0
STYLE
  2
STANDARD
 70
     0
 40
0.0
 41
1.0
 50
0.0
 71
     0
 42
3.5
  3
iso
  4

  0
ENDTAB
  0
TABLE
  2
VIEW
 70
     0
  0
ENDTAB
  0
TABLE
  2
UCS
 70
     0
  0
ENDTAB
  0
TABLE
  2
APPID
 70
     1
  0
APPID
  2
ACAD
 70
    64
  0
ENDTAB
  0
TABLE
  2
DIMSTYLE
 70
     0
  0
ENDTAB
  0
ENDSEC
  0
SECTION
  2
BLOCKS
  0
ENDSEC
  0
SECTION
  2
ENTITIES
  0
POINT
  8
ITEM_HILFE
 10
74.53049007601164
 20
24.51086956521422
 30
0.0
  0
POINT
  8
ITEM_HILFE
 10
35.36774791473586
 20
48.26086956521739
 30
0.0
  0
LINE
  8
0
 10
83.23049007601163
 20
28.3108695652142
 30
0.0
 11
83.53049007601164
 21
28.61086956521421
 31
0.0
  0
LINE
  8
0
 10
83.23049007601163
 20
28.3108695652142
 30
0.0
 11
80.58049007601165
 21
28.3108695652142
 31
0.0
  0
LINE
  8
0
 10
83.23049007601163
 20
28.3108695652142
 30
0.0
 11
83.23049007601163
 21
68.21086956521421
 31
0.0
  0
LINE
  8
0
 10
65.83049007601165
 20
28.3108695652142
 30
0.0
 11
65.53049007601164
 21
28.61086956521421
 31
0.0
  0
LINE
  8
0
 10
65.83049007601165
 20
28.3108695652142
 30
0.0
 11
68.48049007601163
 21
28.3108695652142
 31
0.0
  0
LINE
  8
0
 10
65.83049007601165
 20
28.3108695652142
 30
0.0
 11
65.83049007601165
 21
68.21086956521421
 31
0.0
  0
LINE
  8
0
 10
83.23049007601163
 20
68.21086956521421
 30
0.0
 11
83.53049007601164
 21
67.91086956521419
 31
0.0
  0
LINE
  8
0
 10
83.23049007601163
 20
68.21086956521421
 30
0.0
 11
80.58049007601165
 21
68.21086956521421
 31
0.0
  0
LINE
  8
0
 10
65.83049007601165
 20
68.21086956521421
 30
0.0
 11
65.53049007601164
 21
67.91086956521419
 31
0.0
  0
LINE
  8
0
 10
64.53049007601164
 20
57.61086956521421
 30
0.0
 11
64.53049007601164
 21
38.91086956521419
 31
0.0
  0
LINE
  8
0
 10
65.53049007601164
 20
67.91086956521419
 30
0.0
 11
65.53049007601164
 21
28.61086956521421
 31
0.0
  0
LINE
  8
0
 10
68.48049007601163
 20
28.3108695652142
 30
0.0
 11
68.48049007601163
 21
68.21086956521421
 31
0.0
  0
LINE
  8
0
 10
72.28049007601164
 20
31.51086956521422
 30
0.0
 11
72.28049007601164
 21
65.01086956521422
 31
0.0
  0
LINE
  8
0
 10
76.78049007601164
 20
31.51086956521422
 30
0.0
 11
76.78049007601164
 21
65.01086956521422
 31
0.0
  0
LINE
  8
0
 10
80.58049007601165
 20
28.3108695652142
 30
0.0
 11
80.58049007601165
 21
68.21086956521421
 31
0.0
  0
LINE
  8
0
 10
83.53049007601164
 20
67.91086956521419
 30
0.0
 11
83.53049007601164
 21
28.61086956521421
 31
0.0
  0
LINE
  8
0
 10
84.53049007601164
 20
57.61086956521421
 30
0.0
 11
84.53049007601164
 21
38.91086956521419
 31
0.0
  0
LINE
  8
0
 10
64.53049007601164
 20
38.91086956521419
 30
0.0
 11
65.53049007601164
 21
38.91086956521419
 31
0.0
  0
LINE
  8
0
 10
68.48049007601163
 20
28.3108695652142
 30
0.0
 11
72.28049007601164
 21
31.51086956521422
 31
0.0
  0
LINE
  8
0
 10
72.28049007601164
 20
31.51086956521422
 30
0.0
 11
76.78049007601164
 21
31.51086956521422
 31
0.0
  0
LINE
  8
0
 10
80.58049007601165
 20
28.3108695652142
 30
0.0
 11
76.78049007601164
 21
31.51086956521422
 31
0.0
  0
LINE
  8
0
 10
84.53049007601164
 20
38.91086956521419
 30
0.0
 11
83.53049007601164
 21
38.91086956521419
 31
0.0
  0
LINE
  8
0
 10
84.53049007601164
 20
57.61086956521421
 30
0.0
 11
83.53049007601164
 21
57.61086956521421
 31
0.0
  0
LINE
  8
0
 10
80.58049007601165
 20
68.21086956521421
 30
0.0
 11
76.78049007601164
 21
65.01086956521422
 31
0.0
  0
LINE
  8
0
 10
72.28049007601164
 20
65.01086956521422
 30
0.0
 11
76.78049007601164
 21
65.01086956521422
 31
0.0
  0
LINE
  8
0
 10
68.48049007601163
 20
68.21086956521421
 30
0.0
 11
72.28049007601164
 21
65.01086956521422
 31
0.0
  0
LINE
  8
0
 10
65.83049007601165
 20
68.21086956521421
 30
0.0
 11
68.48049007601163
 21
68.21086956521421
 31
0.0
  0
LINE
  8
0
 10
64.53049007601164
 20
57.61086956521421
 30
0.0
 11
65.53049007601164
 21
57.61086956521421
 31
0.0
  0
CIRCLE
  8
ITEM_50
 10
35.36774791473586
 20
48.26086956521739
 30
0.0
 40
19.94999999999999
  0
CIRCLE
  8
ITEM_50
 10
35.36774791473586
 20
48.26086956521739
 30
0.0
 40
12.5
  0
CIRCLE
  8
ITEM_50
 10
35.36774791473586
 20
48.26086956521739
 30
0.0
 40
9.349999999996832
  0
CIRCLE
  8
ITEM_50
 10
35.36774791473586
 20
48.26086956521739
 30
0.0
 40
6.0
  0
ENDSEC
  0
EOF
